吉他星空,吉他谱,吉他视频加载中……
吉他谱快速搜索>>> 歌曲名: 歌手:
您的位置:首页 > 吉他谱 > 文本吉他谱 > If I Were A Boy-吉他谱下载

If I Were A Boy


  • 歌 手:Beyonce Knowles
  • 格 式:txt
  • 推荐度:1星
  • 发布时间:2015-01-13

If I Were A Boy吉他谱

-------------------------------------------------------------------------------
歌曲名:If I Were A Boy  
歌手/乐队:Beyonce Knowles
编配者(转载来源):网络
-------------------------------------------------------------------------------


I'm 90% sure of this one...

Em7 - 022033
C   - 032010
G   - 320033
D   - xx0232


[VERSE]


                Em7     C       G      D           Em7     C     G
e|-------------------------------------2-------------------------------------|
B|---------------3------1-------3--------3----------3------1------3----------|
G|--------------0-0----0-0-----0-0----2------------0-0----0-0----0-0---------|
D|----------------------------------0----------------------------------------|
A|---------------------3---------------------------------3-------------------|
E|-------------0--------------3-------------------0-------------3------------|
  If I were a boy                Even just for a day

       D          Em7    C        G         D
e|------2-------------------------------------2------------------------------|
B|-------3---------3------1--------3------------3----------------------------|
G|-----2----------0-0----0-0------0-0--------2-------------------------------|
D|----0------------------------------------0---------------------------------|
A|----------------------3----------------------------------------------------|
E|---------------0---------------3-------------------------------------------|
  I'd roll outta bed.. morning..throw on.. wanted then go
[ Tab from: http://www.guitartabs.cc/tabs/b/beyonce_knowles/if_i_were_a_boy_tab_ver_2.html ]
                Em7     C       G      D
e|-------------------------------------2-----------|
B|---------------3------1-------3--------3---------|
G|--------------0-0----0-0-----0-0----2------------|
D|----------------------------------0--------------|
A|---------------------3---------------------------|
E|-------------0--------------3--------------------|

         {And just repeat it...}

[CHORUS]

            Em7  C  G
If I were a boy
            D          Em7  C  G
I think I could understand
 D               Em7        C
How it feels to love a girl
 G                 D       Em7  C  G
I swear I'd be a better man.
     D           Em7  C  G
I'd listen to her
        D             Em7  C  G
Cause I know how it hurts
D                 Em7        C
When you lose the one you wanted
             G           D
Cause he's taken you for granted
        Em7          C            G     D
And everything you had got destroyed

[VERSE II]
If I were a boy
I could turn off my phone
Tell evveryone it's broken
So they'd think that I was sleepin' alone
I'd put myself first
And make the rules as I go
Cause I know that she'd be faithful
Waitin' for me to come home (to come home)

[CHORUS]

[BRIDGE]
Em7       C         G       D           Em7
It's a little too late for you to come back
         C            G
Say its just a mistake
              D                 Em7
Think I'd forgive you like that
          C              G          D
If you thought I would wait for you
               Em7
You thought wrong

[CHORUS]

  { PLAY THE PLUCKING THEN STRUMMING }

But you're just a boy
You don't understand
Yeah you don't understand
How it feels to love a girl someday
You wish you were a better man
You don't listen to her
You don't care how it hurts
Until you lose the one you wanted
Cause you've taken her for granted
And everything you have got destroyed
But you're just a boy


HEHEHEHEHEH..........

相关资源

下载说明

☉ 请使用 WinRAR v3.10 以上版本解压此资源。如有压缩密码,密码均为:www.gtsky.com(红色部份)。
☉ 如果这个资源不能下载的请点击报告错误,吉他星空将尽快修复。谢谢合作!
☉ 此资源仅作交流学习,如侵害到您的权益,请联系我们(QQ:7152478;E-mail:choter@163.com)适当处理。
☉ 使用者自行效验该吉他谱是否完整正确,如因使用该吉他谱而造成任何损失,吉他星空概不负责。