吉他星空,吉他谱,吉他视频加载中……
吉他谱快速搜索>>> 歌曲名: 歌手:
您的位置:首页 > 吉他谱 > 文本吉他谱 > 羊肉面-吉他谱下载

羊肉面


  • 歌 手:布衣乐队
  • 格 式:txt
  • 推荐度:1星
  • 发布时间:2017-02-04

羊肉面吉他谱

-------------------------------------------------------------------------------
歌曲名:羊肉面
歌手/乐队:布衣乐队
编配者(转载来源):OUT MEN
-------------------------------------------------------------------------------

前奏G----D----C   G----D----C---G   G----D----C   G----D----C---G

G     D         C
小卢最骄傲的就是他的妈妈
G     D         C       G
小时候最喜欢扑在妈妈的怀里
G     D         C
最幸福的时间就是生日的时候
G     D         C        G
妈妈给他做碗最心爱的 羊肉面 
G     D         C
有一天他听了一首rock roll的歌
G     D       C       G
把他的生活生活完全来改变
G     D         C
买吉他不回家一直去玩rock roll
G     D         C       G
要成功不再要妈妈辛苦的生活
      D           Em
小卢你真不知道幸福究竟是什么
    Am      C       Cm7   D
妈妈最幸福的就是看你吃的样子
      C       G
你回家吧困难的时候
    Am        C       Em
回家妈妈给你做最喜欢的呀
      C        G
你回家吧困难的时候
     Am       C       
回家妈妈给你做最喜欢的呀
    Em
羊肉面

 间奏G----D----C            G----D----C---G
 G     D        C
妈妈不要担心这的生活很不错
G     D         C       G
有新鲜的故事还有很高级的菜
 G    D         C
也许在某一天就会有一个成功
 G    D         C       G
那时侯让我们一起幸福的生活
D           Em
小卢你真不知道幸福究竟是什么
Am      C       Cm7   D
妈妈最幸福的就是看你吃的样子
  C       G
你回家吧困难的时候
Am      C       Cm7   D
回家妈妈给你做最喜欢的呀
C        G
你回家吧困难的时候
  Am       C
回家妈妈给你做最喜欢的呀
    Em
羊肉面 

间奏G----D----C            G----D----C---G

G     D         C
有一天发现了小卢消失很久了
G     D         C       G
寻遍每个角落还是不见他身影
G     D         C
在他的桌子上发现留下了一首歌
G     D         C       G
它的名字就叫我最亲爱的妈妈
D           Em
小卢你真不知道幸福究竟是什么
  Am      C       Cm7   D
妈妈最幸福的就是看你吃的样子
  C       G
你回家吧困难的时候
Am        C       Em
回家妈妈给你做最喜欢的呀
C        G
你回家吧困难的时候
  Am       C
回家妈妈给你做最喜欢的呀
    Em
羊肉面
      C        G
你回家吧困难的时候
Am        C       Em
回家妈妈给你做最喜欢的呀
C        G
你回家吧困难的时候
  Am       C
回家妈妈给你做最喜欢的呀
    Em
羊肉面  

注:此处为前奏和间奏的分解形式

  G           D           C     
E--------------------------------------------------------------------
B-12----12----10-----10---8------------------------------------------
G---12-----------11---------9---9------------------------------------
D-----12-----------12---------10-------------------------------------
A-10----------12----------10-----------------------------------------
E--------------------------------------------------------------------
  G           D           C      D
E--------------------------------------------------------------------
B-12----12----10-----10---8------------------------------------------
G---12-----------11---------9----12----------------------------------
D-----12-----------12---------10------------------------------------
A-10----------12----------10-----10----------------------------------
E--------------------------------------------------------------------



Cm7
 ----0---------------------------------------------------------------
 ----1---------------------------------------------------------------
 ----0---------------------------------------------------------------
 ----2---------------------------------------------------------------
 ----2--------------------------------------------------------------
 ----*--------------------------------------------------------------

                G       D      C
失真的节奏型:  X XO  X XO   X OX 。X  XXO
                

相关资源

下载说明

☉ 请使用 WinRAR v3.10 以上版本解压此资源。如有压缩密码,密码均为:www.gtsky.com(红色部份)。
☉ 如果这个资源不能下载的请点击报告错误,吉他星空将尽快修复。谢谢合作!
☉ 此资源仅作交流学习,如侵害到您的权益,请联系我们(QQ:7152478;E-mail:choter@163.com)适当处理。
☉ 使用者自行效验该吉他谱是否完整正确,如因使用该吉他谱而造成任何损失,吉他星空概不负责。